ISO-10303-21;
HEADER;
FILE_DESCRIPTION (( 'STEP AP203' ),
    '1' );
FILE_NAME ('Q-OZHWP-R2-20-633-M.STEP',
    '2020-12-22T09:16:56',
    ( '' ),
    ( '' ),
    'SwSTEP 2.0',
    'SolidWorks 2020',
    '' );
FILE_SCHEMA (( 'CONFIG_CONTROL_DESIGN' ));
ENDSEC;

DATA;
#1 = MECHANICAL_CONTEXT ( 'NONE', #186, 'mechanical' ) ;
#2 = CIRCLE ( 'NONE', #188, 10.00000000000000000 ) ;
#3 = LINE ( 'NONE', #258, #290 ) ;
#4 = PERSON_AND_ORGANIZATION ( #193, #140 ) ;
#5 = CARTESIAN_POINT ( 'NONE',  ( 2.999999999999999112, 0.000000000000000000, 0.000000000000000000 ) ) ;
#6 = EDGE_LOOP ( 'NONE', ( #213, #265, #39, #181 ) ) ;
#7 = EDGE_LOOP ( 'NONE', ( #110, #324, #261, #145 ) ) ;
#8 = PERSON_AND_ORGANIZATION_ROLE ( 'creator' ) ;
#9 = CARTESIAN_POINT ( 'NONE',  ( -3.000000000000000000, 10.00000000000000000, 0.000000000000000000 ) ) ;
#10 = EDGE_CURVE ( 'NONE', #126, #134, #2, .T. ) ;
#11 = CARTESIAN_POINT ( 'NONE',  ( -2.500000000000000444, 1.224646799147353256E-15, -10.00000000000000000 ) ) ;
#12 = VERTEX_POINT ( 'NONE', #327 ) ;
#13 = DIRECTION ( 'NONE',  ( -1.000000000000000000, -0.000000000000000000, -0.000000000000000000 ) ) ;
#14 = PRODUCT ( 'Q-OZHWP-R2-20-633-M', 'Q-OZHWP-R2-20-633-M', '', ( #1 ) ) ;
#15 = VERTEX_POINT ( 'NONE', #325 ) ;
#16 = DATE_AND_TIME ( #82, #225 ) ;
#17 = AXIS2_PLACEMENT_3D ( 'NONE', #238, #13, #112 ) ;
#18 = LINE ( 'NONE', #248, #270 ) ;
#19 = CARTESIAN_POINT ( 'NONE',  ( 2.500000000000000888, 1.224646799147353256E-15, -10.00000000000000000 ) ) ;
#20 = DIRECTION ( 'NONE',  ( 1.000000000000000000, 0.000000000000000000, 0.000000000000000000 ) ) ;
#21 = APPROVAL ( #271, 'UNSPECIFIED' ) ;
#22 = DIRECTION ( 'NONE',  ( 0.000000000000000000, 0.000000000000000000, 1.000000000000000000 ) ) ;
#23 = FACE_OUTER_BOUND ( 'NONE', #113, .T. ) ;
#24 = AXIS2_PLACEMENT_3D ( 'NONE', #9, #133, #286 ) ;
#25 = SECURITY_CLASSIFICATION ( '', '', #232 ) ;
#26 = CARTESIAN_POINT ( 'NONE',  ( 2.500000000000000888, 0.000000000000000000, 0.000000000000000000 ) ) ;
#27 = PERSON_AND_ORGANIZATION_ROLE ( 'design_supplier' ) ;
#28 = FACE_OUTER_BOUND ( 'NONE', #142, .T. ) ;
#29 = PERSON_AND_ORGANIZATION ( #193, #140 ) ;
#30 = DATE_AND_TIME ( #201, #116 ) ;
#31 = AXIS2_PLACEMENT_3D ( 'NONE', #244, #43, #92 ) ;
#32 = CARTESIAN_POINT ( 'NONE',  ( -1.614212418857619014, 0.000000000000000000, 10.00000000000000000 ) ) ;
#33 = AXIS2_PLACEMENT_3D ( 'NONE', #306, #256, #281 ) ;
#34 = ORIENTED_EDGE ( 'NONE', *, *, #279, .F. ) ;
#35 = CC_DESIGN_PERSON_AND_ORGANIZATION_ASSIGNMENT ( #135, #8, ( #209 ) ) ;
#36 = PERSON_AND_ORGANIZATION ( #193, #140 ) ;
#37 = DIRECTION ( 'NONE',  ( 0.000000000000000000, 0.000000000000000000, -1.000000000000000000 ) ) ;
#38 = VECTOR ( 'NONE', #161, 1000.000000000000000 ) ;
#39 = ORIENTED_EDGE ( 'NONE', *, *, #277, .T. ) ;
#40 = EDGE_LOOP ( 'NONE', ( #122, #86 ) ) ;
#41 = VERTEX_POINT ( 'NONE', #42 ) ;
#42 = CARTESIAN_POINT ( 'NONE',  ( -2.500000000000000444, 0.000000000000000000, 10.00000000000000000 ) ) ;
#43 = DIRECTION ( 'NONE',  ( -1.000000000000000000, -0.000000000000000000, -0.000000000000000000 ) ) ;
#44 = CARTESIAN_POINT ( 'NONE',  ( 2.999999999999999112, 1.224646799147353256E-15, -10.00000000000000000 ) ) ;
#45 = DIRECTION ( 'NONE',  ( -1.000000000000000000, 0.000000000000000000, -0.000000000000000000 ) ) ;
#46 = DIRECTION ( 'NONE',  ( 0.000000000000000000, 0.000000000000000000, 1.000000000000000000 ) ) ;
#47 = MANIFOLD_SOLID_BREP ( 'Ðý×', #171 ) ;
#48 = AXIS2_PLACEMENT_3D ( 'NONE', #292, #106, #184 ) ;
#49 = DIRECTION ( 'NONE',  ( -1.000000000000000000, -0.000000000000000000, -0.000000000000000000 ) ) ;
#50 = EDGE_LOOP ( 'NONE', ( #267, #136 ) ) ;
#51 = CYLINDRICAL_SURFACE ( 'NONE', #65, 12.69999999999999929 ) ;
#52 = ADVANCED_FACE ( 'NONE', ( #168 ), #331, .F. ) ;
#53 = DIRECTION ( 'NONE',  ( 0.000000000000000000, 0.000000000000000000, 1.000000000000000000 ) ) ;
#54 = COORDINATED_UNIVERSAL_TIME_OFFSET ( 8, 0, .AHEAD. ) ;
#55 = CIRCLE ( 'NONE', #278, 12.69999999999999929 ) ;
#56 = ADVANCED_FACE ( 'NONE', ( #294 ), #88, .F. ) ;
#57 = VERTEX_POINT ( 'NONE', #245 ) ;
#58 = FACE_BOUND ( 'NONE', #50, .T. ) ;
#59 = CIRCLE ( 'NONE', #231, 10.00000000000000000 ) ;
#60 = EDGE_LOOP ( 'NONE', ( #62, #78 ) ) ;
#61 = DESIGN_CONTEXT ( 'detailed design', #163, 'design' ) ;
#62 = ORIENTED_EDGE ( 'NONE', *, *, #80, .T. ) ;
#63 = VERTEX_POINT ( 'NONE', #19 ) ;
#64 = CARTESIAN_POINT ( 'NONE',  ( -3.000000000000000444, 0.000000000000000000, 0.000000000000000000 ) ) ;
#65 = AXIS2_PLACEMENT_3D ( 'NONE', #127, #129, #53 ) ;
#66 = DIRECTION ( 'NONE',  ( 0.000000000000000000, 0.000000000000000000, 1.000000000000000000 ) ) ;
#67 = CARTESIAN_POINT ( 'NONE',  ( 2.500000000000000888, 0.000000000000000000, 0.000000000000000000 ) ) ;
#68 = DIRECTION ( 'NONE',  ( 0.000000000000000000, 0.000000000000000000, 1.000000000000000000 ) ) ;
#69 = PLANE ( 'NONE',  #85 ) ;
#70 = AXIS2_PLACEMENT_3D ( 'NONE', #167, #120, #90 ) ;
#71 = DIRECTION ( 'NONE',  ( 0.000000000000000000, 0.000000000000000000, 1.000000000000000000 ) ) ;
#72 = PLANE ( 'NONE',  #125 ) ;
#73 = ADVANCED_FACE ( 'NONE', ( #197 ), #169, .F. ) ;
#74 = PERSON_AND_ORGANIZATION_ROLE ( 'classification_officer' ) ;
#75 = APPROVAL_STATUS ( 'not_yet_approved' ) ;
#76 = CIRCLE ( 'NONE', #83, 10.00000000000000000 ) ;
#77 =( NAMED_UNIT ( * ) PLANE_ANGLE_UNIT ( ) SI_UNIT ( $, .RADIAN. ) );
#78 = ORIENTED_EDGE ( 'NONE', *, *, #243, .T. ) ;
#79 = ORIENTED_EDGE ( 'NONE', *, *, #178, .F. ) ;
#80 = EDGE_CURVE ( 'NONE', #235, #12, #283, .T. ) ;
#81 = ORIENTED_EDGE ( 'NONE', *, *, #240, .T. ) ;
#82 = CALENDAR_DATE ( 2020, 22, 12 ) ;
#83 = AXIS2_PLACEMENT_3D ( 'NONE', #251, #173, #276 ) ;
#84 = CARTESIAN_POINT ( 'NONE',  ( -1.614212418857619014, 0.000000000000000000, 0.000000000000000000 ) ) ;
#85 = AXIS2_PLACEMENT_3D ( 'NONE', #172, #156, #97 ) ;
#86 = ORIENTED_EDGE ( 'NONE', *, *, #272, .F. ) ;
#87 = COORDINATED_UNIVERSAL_TIME_OFFSET ( 8, 0, .AHEAD. ) ;
#88 = CYLINDRICAL_SURFACE ( 'NONE', #301, 10.00000000000000000 ) ;
#89 = CC_DESIGN_SECURITY_CLASSIFICATION ( #25, ( #323 ) ) ;
#90 = DIRECTION ( 'NONE',  ( 0.000000000000000000, 0.000000000000000000, 1.000000000000000000 ) ) ;
#91 = DIRECTION ( 'NONE',  ( -1.000000000000000000, -0.000000000000000000, -0.000000000000000000 ) ) ;
#92 = DIRECTION ( 'NONE',  ( 0.000000000000000000, 0.000000000000000000, 1.000000000000000000 ) ) ;
#93 = LOCAL_TIME ( 17, 16, 56.00000000000000000, #210 ) ;
#94 = DIRECTION ( 'NONE',  ( 0.000000000000000000, 0.000000000000000000, 1.000000000000000000 ) ) ;
#95 = CARTESIAN_POINT ( 'NONE',  ( 2.999999999999999112, 12.69999999999999929, 0.000000000000000000 ) ) ;
#96 = CC_DESIGN_PERSON_AND_ORGANIZATION_ASSIGNMENT ( #102, #74, ( #25 ) ) ;
#97 = DIRECTION ( 'NONE',  ( -0.000000000000000000, 0.000000000000000000, 1.000000000000000000 ) ) ;
#98 = PERSON_AND_ORGANIZATION ( #193, #140 ) ;
#99 = APPROVAL_PERSON_ORGANIZATION ( #29, #170, #206 ) ;
#100 = DIRECTION ( 'NONE',  ( 0.000000000000000000, 0.000000000000000000, 1.000000000000000000 ) ) ;
#101 = VERTEX_POINT ( 'NONE', #44 ) ;
#102 = PERSON_AND_ORGANIZATION ( #193, #140 ) ;
#103 = CARTESIAN_POINT ( 'NONE',  ( -3.000000000000000000, 0.000000000000000000, 0.000000000000000000 ) ) ;
#104 = FACE_OUTER_BOUND ( 'NONE', #40, .T. ) ;
#105 = CALENDAR_DATE ( 2020, 22, 12 ) ;
#106 = DIRECTION ( 'NONE',  ( -1.000000000000000000, -0.000000000000000000, -0.000000000000000000 ) ) ;
#107 = ORIENTED_EDGE ( 'NONE', *, *, #237, .T. ) ;
#108 = DATE_AND_TIME ( #162, #333 ) ;
#109 = CARTESIAN_POINT ( 'NONE',  ( -2.500000000000000444, 0.000000000000000000, 0.000000000000000000 ) ) ;
#110 = ORIENTED_EDGE ( 'NONE', *, *, #297, .T. ) ;
#111 = EDGE_CURVE ( 'NONE', #57, #63, #274, .T. ) ;
#112 = DIRECTION ( 'NONE',  ( 0.000000000000000000, 0.000000000000000000, 1.000000000000000000 ) ) ;
#113 = EDGE_LOOP ( 'NONE', ( #115, #284 ) ) ;
#114 = AXIS2_PLACEMENT_3D ( 'NONE', #234, #20, #312 ) ;
#115 = ORIENTED_EDGE ( 'NONE', *, *, #328, .F. ) ;
#116 = LOCAL_TIME ( 17, 16, 56.00000000000000000, #262 ) ;
#117 = CARTESIAN_POINT ( 'NONE',  ( -1.614212418857619014, 0.000000000000000000, 12.69999999999999929 ) ) ;
#118 = EDGE_CURVE ( 'NONE', #288, #126, #18, .T. ) ;
#119 = CARTESIAN_POINT ( 'NONE',  ( 2.999999999999999112, 0.000000000000000000, 10.00000000000000000 ) ) ;
#120 = DIRECTION ( 'NONE',  ( -1.000000000000000000, -0.000000000000000000, -0.000000000000000000 ) ) ;
#121 = EDGE_CURVE ( 'NONE', #15, #235, #152, .T. ) ;
#122 = ORIENTED_EDGE ( 'NONE', *, *, #297, .F. ) ;
#123 = CARTESIAN_POINT ( 'NONE',  ( 2.999999999999999112, 0.000000000000000000, 0.000000000000000000 ) ) ;
#124 = ADVANCED_FACE ( 'NONE', ( #299 ), #69, .F. ) ;
#125 = AXIS2_PLACEMENT_3D ( 'NONE', #95, #45, #159 ) ;
#126 = VERTEX_POINT ( 'NONE', #254 ) ;
#127 = CARTESIAN_POINT ( 'NONE',  ( -1.614212418857619014, 0.000000000000000000, 0.000000000000000000 ) ) ;
#128 = COORDINATED_UNIVERSAL_TIME_OFFSET ( 8, 0, .AHEAD. ) ;
#129 = DIRECTION ( 'NONE',  ( -1.000000000000000000, -0.000000000000000000, -0.000000000000000000 ) ) ;
#130 = AXIS2_PLACEMENT_3D ( 'NONE', #123, #199, #46 ) ;
#131 = APPROVAL_DATE_TIME ( #30, #170 ) ;
#132 = DIRECTION ( 'NONE',  ( -1.000000000000000000, -0.000000000000000000, -0.000000000000000000 ) ) ;
#133 = DIRECTION ( 'NONE',  ( 1.000000000000000000, 0.000000000000000000, 0.000000000000000000 ) ) ;
#134 = VERTEX_POINT ( 'NONE', #307 ) ;
#135 = PERSON_AND_ORGANIZATION ( #193, #140 ) ;
#136 = ORIENTED_EDGE ( 'NONE', *, *, #10, .F. ) ;
#137 = EDGE_CURVE ( 'NONE', #134, #126, #295, .T. ) ;
#138 = CIRCLE ( 'NONE', #313, 12.69999999999999929 ) ;
#139 = CYLINDRICAL_SURFACE ( 'NONE', #48, 10.00000000000000000 ) ;
#140 = ORGANIZATION ( 'UNSPECIFIED', 'UNSPECIFIED', '' ) ;
#141 = ADVANCED_BREP_SHAPE_REPRESENTATION ( 'Q-OZHWP-R2-20-633-M', ( #47, #33 ), #250 ) ;
#142 = EDGE_LOOP ( 'NONE', ( #190, #314, #217, #157 ) ) ;
#143 = ADVANCED_FACE ( 'NONE', ( #28 ), #51, .T. ) ;
#144 = PLANE ( 'NONE',  #24 ) ;
#145 = ORIENTED_EDGE ( 'NONE', *, *, #277, .F. ) ;
#146 = SHAPE_DEFINITION_REPRESENTATION ( #148, #141 ) ;
#147 = AXIS2_PLACEMENT_3D ( 'NONE', #249, #269, #194 ) ;
#148 = PRODUCT_DEFINITION_SHAPE ( 'NONE', 'NONE',  #209 ) ;
#149 = CARTESIAN_POINT ( 'NONE',  ( -1.614212418857619014, 0.000000000000000000, 0.000000000000000000 ) ) ;
#150 = FACE_OUTER_BOUND ( 'NONE', #218, .T. ) ;
#151 = DIRECTION ( 'NONE',  ( -1.000000000000000000, -0.000000000000000000, -0.000000000000000000 ) ) ;
#152 = LINE ( 'NONE', #117, #175 ) ;
#153 = CIRCLE ( 'NONE', #130, 10.00000000000000000 ) ;
#154 = CARTESIAN_POINT ( 'NONE',  ( -1.614212418857619014, 0.000000000000000000, 10.00000000000000000 ) ) ;
#155 = APPROVAL_DATE_TIME ( #285, #183 ) ;
#156 = DIRECTION ( 'NONE',  ( -1.000000000000000000, 0.000000000000000000, -0.000000000000000000 ) ) ;
#157 = ORIENTED_EDGE ( 'NONE', *, *, #121, .F. ) ;
#158 = APPLICATION_PROTOCOL_DEFINITION ( 'international standard', 'config_control_design', 1994, #163 ) ;
#159 = DIRECTION ( 'NONE',  ( -0.000000000000000000, 0.000000000000000000, 1.000000000000000000 ) ) ;
#160 = APPLICATION_PROTOCOL_DEFINITION ( 'international standard', 'config_control_design', 1994, #186 ) ;
#161 = DIRECTION ( 'NONE',  ( -1.000000000000000000, -0.000000000000000000, -0.000000000000000000 ) ) ;
#162 = CALENDAR_DATE ( 2020, 22, 12 ) ;
#163 = APPLICATION_CONTEXT ( 'configuration controlled 3d designs of mechanical parts and assemblies' ) ;
#164 = CC_DESIGN_PERSON_AND_ORGANIZATION_ASSIGNMENT ( #257, #27, ( #323 ) ) ;
#165 = EDGE_LOOP ( 'NONE', ( #308, #81 ) ) ;
#166 = EDGE_LOOP ( 'NONE', ( #263, #311, #293, #268 ) ) ;
#167 = CARTESIAN_POINT ( 'NONE',  ( -1.614212418857619014, 0.000000000000000000, 0.000000000000000000 ) ) ;
#168 = FACE_OUTER_BOUND ( 'NONE', #216, .T. ) ;
#169 = CYLINDRICAL_SURFACE ( 'NONE', #70, 10.00000000000000000 ) ;
#170 = APPROVAL ( #180, 'UNSPECIFIED' ) ;
#171 = CLOSED_SHELL ( 'NONE', ( #143, #73, #300, #124, #52, #56, #316, #334, #176, #287 ) ) ;
#172 = CARTESIAN_POINT ( 'NONE',  ( 2.500000000000000444, 10.00000000000000000, 0.000000000000000000 ) ) ;
#173 = DIRECTION ( 'NONE',  ( 1.000000000000000000, 0.000000000000000000, 0.000000000000000000 ) ) ;
#174 = LINE ( 'NONE', #177, #38 ) ;
#175 = VECTOR ( 'NONE', #195, 1000.000000000000000 ) ;
#176 = ADVANCED_FACE ( 'NONE', ( #23, #224 ), #72, .F. ) ;
#177 = CARTESIAN_POINT ( 'NONE',  ( -1.614212418857619014, 1.224646799147353256E-15, -10.00000000000000000 ) ) ;
#178 = EDGE_CURVE ( 'NONE', #101, #63, #174, .T. ) ;
#179 = AXIS2_PLACEMENT_3D ( 'NONE', #67, #151, #22 ) ;
#180 = APPROVAL_STATUS ( 'not_yet_approved' ) ;
#181 = ORIENTED_EDGE ( 'NONE', *, *, #137, .T. ) ;
#182 = DATE_TIME_ROLE ( 'creation_date' ) ;
#183 = APPROVAL ( #75, 'UNSPECIFIED' ) ;
#184 = DIRECTION ( 'NONE',  ( 0.000000000000000000, 0.000000000000000000, 1.000000000000000000 ) ) ;
#185 = ORIENTED_EDGE ( 'NONE', *, *, #111, .T. ) ;
#186 = APPLICATION_CONTEXT ( 'configuration controlled 3d designs of mechanical parts and assemblies' ) ;
#187 = ORIENTED_EDGE ( 'NONE', *, *, #240, .F. ) ;
#188 = AXIS2_PLACEMENT_3D ( 'NONE', #64, #222, #68 ) ;
#189 = DIRECTION ( 'NONE',  ( 1.000000000000000000, 0.000000000000000000, 0.000000000000000000 ) ) ;
#190 = ORIENTED_EDGE ( 'NONE', *, *, #328, .T. ) ;
#191 = CIRCLE ( 'NONE', #322, 10.00000000000000000 ) ;
#192 =( NAMED_UNIT ( * ) SI_UNIT ( $, .STERADIAN. ) SOLID_ANGLE_UNIT ( ) );
#193 = PERSON ( 'UNSPECIFIED', 'UNSPECIFIED', 'UNSPECIFIED', ('UNSPECIFIED'), ('UNSPECIFIED'), ('UNSPECIFIED') ) ;
#194 = DIRECTION ( 'NONE',  ( 0.000000000000000000, 0.000000000000000000, 1.000000000000000000 ) ) ;
#195 = DIRECTION ( 'NONE',  ( -1.000000000000000000, -0.000000000000000000, -0.000000000000000000 ) ) ;
#196 = AXIS2_PLACEMENT_3D ( 'NONE', #26, #335, #200 ) ;
#197 = FACE_OUTER_BOUND ( 'NONE', #7, .T. ) ;
#198 = APPROVAL_PERSON_ORGANIZATION ( #36, #21, #219 ) ;
#199 = DIRECTION ( 'NONE',  ( -1.000000000000000000, -0.000000000000000000, -0.000000000000000000 ) ) ;
#200 = DIRECTION ( 'NONE',  ( 0.000000000000000000, 0.000000000000000000, 1.000000000000000000 ) ) ;
#201 = CALENDAR_DATE ( 2020, 22, 12 ) ;
#202 = DIRECTION ( 'NONE',  ( -1.000000000000000000, -0.000000000000000000, -0.000000000000000000 ) ) ;
#203 = PERSON_AND_ORGANIZATION_ROLE ( 'creator' ) ;
#204 = DIRECTION ( 'NONE',  ( -1.000000000000000000, -0.000000000000000000, -0.000000000000000000 ) ) ;
#205 = ORIENTED_EDGE ( 'NONE', *, *, #279, .T. ) ;
#206 = APPROVAL_ROLE ( '' ) ;
#207 = ORIENTED_EDGE ( 'NONE', *, *, #111, .F. ) ;
#208 = VECTOR ( 'NONE', #132, 1000.000000000000000 ) ;
#209 = PRODUCT_DEFINITION ( 'UNKNOWN', '', #323, #61 ) ;
#210 = COORDINATED_UNIVERSAL_TIME_OFFSET ( 8, 0, .AHEAD. ) ;
#211 = FACE_OUTER_BOUND ( 'NONE', #166, .T. ) ;
#212 = VERTEX_POINT ( 'NONE', #230 ) ;
#213 = ORIENTED_EDGE ( 'NONE', *, *, #118, .F. ) ;
#214 = DIRECTION ( 'NONE',  ( -1.000000000000000000, -0.000000000000000000, -0.000000000000000000 ) ) ;
#215 = EDGE_CURVE ( 'NONE', #212, #12, #3, .T. ) ;
#216 = EDGE_LOOP ( 'NONE', ( #79, #221, #107, #185 ) ) ;
#217 = ORIENTED_EDGE ( 'NONE', *, *, #80, .F. ) ;
#218 = EDGE_LOOP ( 'NONE', ( #187, #304, #205, #241 ) ) ;
#219 = APPROVAL_ROLE ( '' ) ;
#220 = CC_DESIGN_PERSON_AND_ORGANIZATION_ASSIGNMENT ( #98, #203, ( #323 ) ) ;
#221 = ORIENTED_EDGE ( 'NONE', *, *, #275, .F. ) ;
#222 = DIRECTION ( 'NONE',  ( -1.000000000000000000, -0.000000000000000000, -0.000000000000000000 ) ) ;
#223 = AXIS2_PLACEMENT_3D ( 'NONE', #227, #202, #100 ) ;
#224 = FACE_BOUND ( 'NONE', #165, .T. ) ;
#225 = LOCAL_TIME ( 17, 16, 56.00000000000000000, #87 ) ;
#226 = DIRECTION ( 'NONE',  ( -1.000000000000000000, -0.000000000000000000, -0.000000000000000000 ) ) ;
#227 = CARTESIAN_POINT ( 'NONE',  ( -3.000000000000000444, 0.000000000000000000, 0.000000000000000000 ) ) ;
#228 = CC_DESIGN_PERSON_AND_ORGANIZATION_ASSIGNMENT ( #282, #315, ( #14 ) ) ;
#229 = CALENDAR_DATE ( 2020, 22, 12 ) ;
#230 = CARTESIAN_POINT ( 'NONE',  ( 3.000000000000000000, 1.555301434917138433E-15, -12.69999999999999929 ) ) ;
#231 = AXIS2_PLACEMENT_3D ( 'NONE', #5, #253, #94 ) ;
#232 = SECURITY_CLASSIFICATION_LEVEL ( 'unclassified' ) ;
#233 = CARTESIAN_POINT ( 'NONE',  ( -3.000000000000000000, 0.000000000000000000, 12.69999999999999929 ) ) ;
#234 = CARTESIAN_POINT ( 'NONE',  ( -2.500000000000000444, 10.00000000000000000, 0.000000000000000000 ) ) ;
#235 = VERTEX_POINT ( 'NONE', #233 ) ;
#236 = CIRCLE ( 'NONE', #17, 12.69999999999999929 ) ;
#237 = EDGE_CURVE ( 'NONE', #318, #57, #280, .T. ) ;
#238 = CARTESIAN_POINT ( 'NONE',  ( 3.000000000000000000, 0.000000000000000000, 0.000000000000000000 ) ) ;
#239 = UNCERTAINTY_MEASURE_WITH_UNIT (LENGTH_MEASURE( 1.000000000000000082E-05 ), #260, 'distance_accuracy_value', 'NONE');
#240 = EDGE_CURVE ( 'NONE', #101, #318, #59, .T. ) ;
#241 = ORIENTED_EDGE ( 'NONE', *, *, #237, .F. ) ;
#242 = LOCAL_TIME ( 17, 16, 56.00000000000000000, #128 ) ;
#243 = EDGE_CURVE ( 'NONE', #12, #235, #138, .T. ) ;
#244 = CARTESIAN_POINT ( 'NONE',  ( -1.614212418857619014, 0.000000000000000000, 0.000000000000000000 ) ) ;
#245 = CARTESIAN_POINT ( 'NONE',  ( 2.500000000000000888, 0.000000000000000000, 10.00000000000000000 ) ) ;
#246 = CC_DESIGN_DATE_AND_TIME_ASSIGNMENT ( #305, #182, ( #209 ) ) ;
#247 = FACE_OUTER_BOUND ( 'NONE', #60, .T. ) ;
#248 = CARTESIAN_POINT ( 'NONE',  ( -1.614212418857619014, 1.224646799147353256E-15, -10.00000000000000000 ) ) ;
#249 = CARTESIAN_POINT ( 'NONE',  ( -3.000000000000000000, 0.000000000000000000, 0.000000000000000000 ) ) ;
#250 =( GEOMETRIC_REPRESENTATION_CONTEXT ( 3 ) GLOBAL_UNCERTAINTY_ASSIGNED_CONTEXT ( ( #239 ) ) GLOBAL_UNIT_ASSIGNED_CONTEXT ( ( #260, #77, #192 ) ) REPRESENTATION_CONTEXT ( 'NONE', 'WORKASPACE' ) );
#251 = CARTESIAN_POINT ( 'NONE',  ( -2.500000000000000444, 0.000000000000000000, 0.000000000000000000 ) ) ;
#252 = AXIS2_PLACEMENT_3D ( 'NONE', #84, #317, #273 ) ;
#253 = DIRECTION ( 'NONE',  ( -1.000000000000000000, -0.000000000000000000, -0.000000000000000000 ) ) ;
#254 = CARTESIAN_POINT ( 'NONE',  ( -3.000000000000000444, 1.224646799147353256E-15, -10.00000000000000000 ) ) ;
#255 = CC_DESIGN_DATE_AND_TIME_ASSIGNMENT ( #108, #319, ( #25 ) ) ;
#256 = DIRECTION ( 'NONE',  ( 0.000000000000000000, 0.000000000000000000, 1.000000000000000000 ) ) ;
#257 = PERSON_AND_ORGANIZATION ( #193, #140 ) ;
#258 = CARTESIAN_POINT ( 'NONE',  ( -1.614212418857619014, 1.555301434917138433E-15, -12.69999999999999929 ) ) ;
#259 = VECTOR ( 'NONE', #226, 1000.000000000000000 ) ;
#260 =( LENGTH_UNIT ( ) NAMED_UNIT ( * ) SI_UNIT ( .MILLI., .METRE. ) );
#261 = ORIENTED_EDGE ( 'NONE', *, *, #10, .T. ) ;
#262 = COORDINATED_UNIVERSAL_TIME_OFFSET ( 8, 0, .AHEAD. ) ;
#263 = ORIENTED_EDGE ( 'NONE', *, *, #215, .F. ) ;
#264 = PLANE ( 'NONE',  #114 ) ;
#265 = ORIENTED_EDGE ( 'NONE', *, *, #272, .T. ) ;
#266 = APPROVAL_PERSON_ORGANIZATION ( #4, #183, #309 ) ;
#267 = ORIENTED_EDGE ( 'NONE', *, *, #137, .F. ) ;
#268 = ORIENTED_EDGE ( 'NONE', *, *, #243, .F. ) ;
#269 = DIRECTION ( 'NONE',  ( -1.000000000000000000, -0.000000000000000000, -0.000000000000000000 ) ) ;
#270 = VECTOR ( 'NONE', #298, 1000.000000000000000 ) ;
#271 = APPROVAL_STATUS ( 'not_yet_approved' ) ;
#272 = EDGE_CURVE ( 'NONE', #288, #41, #76, .T. ) ;
#273 = DIRECTION ( 'NONE',  ( 0.000000000000000000, 0.000000000000000000, 1.000000000000000000 ) ) ;
#274 = CIRCLE ( 'NONE', #179, 10.00000000000000000 ) ;
#275 = EDGE_CURVE ( 'NONE', #318, #101, #153, .T. ) ;
#276 = DIRECTION ( 'NONE',  ( 0.000000000000000000, 0.000000000000000000, -1.000000000000000000 ) ) ;
#277 = EDGE_CURVE ( 'NONE', #41, #134, #303, .T. ) ;
#278 = AXIS2_PLACEMENT_3D ( 'NONE', #310, #214, #66 ) ;
#279 = EDGE_CURVE ( 'NONE', #63, #57, #332, .T. ) ;
#280 = LINE ( 'NONE', #32, #208 ) ;
#281 = DIRECTION ( 'NONE',  ( 1.000000000000000000, 0.000000000000000000, 0.000000000000000000 ) ) ;
#282 = PERSON_AND_ORGANIZATION ( #193, #140 ) ;
#283 = CIRCLE ( 'NONE', #147, 12.69999999999999929 ) ;
#284 = ORIENTED_EDGE ( 'NONE', *, *, #320, .F. ) ;
#285 = DATE_AND_TIME ( #229, #93 ) ;
#286 = DIRECTION ( 'NONE',  ( 0.000000000000000000, 0.000000000000000000, -1.000000000000000000 ) ) ;
#287 = ADVANCED_FACE ( 'NONE', ( #104 ), #264, .F. ) ;
#288 = VERTEX_POINT ( 'NONE', #11 ) ;
#289 = EDGE_LOOP ( 'NONE', ( #207, #34 ) ) ;
#290 = VECTOR ( 'NONE', #49, 1000.000000000000000 ) ;
#291 = CC_DESIGN_APPROVAL ( #21, ( #25 ) ) ;
#292 = CARTESIAN_POINT ( 'NONE',  ( -1.614212418857619014, 0.000000000000000000, 0.000000000000000000 ) ) ;
#293 = ORIENTED_EDGE ( 'NONE', *, *, #121, .T. ) ;
#294 = FACE_OUTER_BOUND ( 'NONE', #6, .T. ) ;
#295 = CIRCLE ( 'NONE', #223, 10.00000000000000000 ) ;
#296 = DIRECTION ( 'NONE',  ( 0.000000000000000000, 0.000000000000000000, 1.000000000000000000 ) ) ;
#297 = EDGE_CURVE ( 'NONE', #41, #288, #191, .T. ) ;
#298 = DIRECTION ( 'NONE',  ( -1.000000000000000000, -0.000000000000000000, -0.000000000000000000 ) ) ;
#299 = FACE_OUTER_BOUND ( 'NONE', #289, .T. ) ;
#300 = ADVANCED_FACE ( 'NONE', ( #150 ), #139, .F. ) ;
#301 = AXIS2_PLACEMENT_3D ( 'NONE', #149, #91, #296 ) ;
#302 = CC_DESIGN_APPROVAL ( #183, ( #323 ) ) ;
#303 = LINE ( 'NONE', #154, #259 ) ;
#304 = ORIENTED_EDGE ( 'NONE', *, *, #178, .T. ) ;
#305 = DATE_AND_TIME ( #105, #242 ) ;
#306 = CARTESIAN_POINT ( 'NONE',  ( 0.000000000000000000, 0.000000000000000000, 0.000000000000000000 ) ) ;
#307 = CARTESIAN_POINT ( 'NONE',  ( -3.000000000000000444, 0.000000000000000000, 10.00000000000000000 ) ) ;
#308 = ORIENTED_EDGE ( 'NONE', *, *, #275, .T. ) ;
#309 = APPROVAL_ROLE ( '' ) ;
#310 = CARTESIAN_POINT ( 'NONE',  ( 3.000000000000000000, 0.000000000000000000, 0.000000000000000000 ) ) ;
#311 = ORIENTED_EDGE ( 'NONE', *, *, #320, .T. ) ;
#312 = DIRECTION ( 'NONE',  ( 0.000000000000000000, 0.000000000000000000, -1.000000000000000000 ) ) ;
#313 = AXIS2_PLACEMENT_3D ( 'NONE', #103, #204, #71 ) ;
#314 = ORIENTED_EDGE ( 'NONE', *, *, #215, .T. ) ;
#315 = PERSON_AND_ORGANIZATION_ROLE ( 'design_owner' ) ;
#316 = ADVANCED_FACE ( 'NONE', ( #58, #247 ), #144, .F. ) ;
#317 = DIRECTION ( 'NONE',  ( -1.000000000000000000, -0.000000000000000000, -0.000000000000000000 ) ) ;
#318 = VERTEX_POINT ( 'NONE', #119 ) ;
#319 = DATE_TIME_ROLE ( 'classification_date' ) ;
#320 = EDGE_CURVE ( 'NONE', #212, #15, #236, .T. ) ;
#321 = CYLINDRICAL_SURFACE ( 'NONE', #252, 12.69999999999999929 ) ;
#322 = AXIS2_PLACEMENT_3D ( 'NONE', #109, #189, #37 ) ;
#323 = PRODUCT_DEFINITION_FORMATION_WITH_SPECIFIED_SOURCE ( 'ANY', '', #14, .NOT_KNOWN. ) ;
#324 = ORIENTED_EDGE ( 'NONE', *, *, #118, .T. ) ;
#325 = CARTESIAN_POINT ( 'NONE',  ( 3.000000000000000000, 0.000000000000000000, 12.69999999999999929 ) ) ;
#326 = APPROVAL_DATE_TIME ( #16, #21 ) ;
#327 = CARTESIAN_POINT ( 'NONE',  ( -3.000000000000000000, 1.555301434917138433E-15, -12.69999999999999929 ) ) ;
#328 = EDGE_CURVE ( 'NONE', #15, #212, #55, .T. ) ;
#329 = CC_DESIGN_APPROVAL ( #170, ( #209 ) ) ;
#330 = PRODUCT_RELATED_PRODUCT_CATEGORY ( 'detail', '', ( #14 ) ) ;
#331 = CYLINDRICAL_SURFACE ( 'NONE', #31, 10.00000000000000000 ) ;
#332 = CIRCLE ( 'NONE', #196, 10.00000000000000000 ) ;
#333 = LOCAL_TIME ( 17, 16, 56.00000000000000000, #54 ) ;
#334 = ADVANCED_FACE ( 'NONE', ( #211 ), #321, .T. ) ;
#335 = DIRECTION ( 'NONE',  ( -1.000000000000000000, -0.000000000000000000, -0.000000000000000000 ) ) ;
ENDSEC;
END-ISO-10303-21;
